ISO-10303-21;
HEADER;
/* Generated by software containing ST-Developer
 * from STEP Tools, Inc. (www.steptools.com) 
 */
/* OPTION: using custom renumber hook */

FILE_DESCRIPTION(
/* description */ ('STEP AP242',
'CAx-IF Rec.Pracs.---Representation and Presentation of Product Manufa
cturing Information (PMI)---4.0---2014-10-13',
'CAx-IF Rec.Pracs.---3D Tessellated Geometry---0.4---2014-09-14','2;1'),

/* implementation_level */ '2;1');

FILE_NAME(
/* name */ '6296a07713d5c035eb5d869c',
/* time_stamp */ '2022-05-31T23:10:47+00:00',
/* author */ (''),
/* organization */ (''),
/* preprocessor_version */ 'ST-DEVELOPER v18.102',
/* originating_system */ '  ',
/* authorisation */ '  ');

FILE_SCHEMA (('AP242_MANAGED_MODEL_BASED_3D_ENGINEERING_MIM_LF { 1 0 10303 442 1 1 4 }'));
ENDSEC;

DATA;
#10=CONTEXT_DEPENDENT_SHAPE_REPRESENTATION(#14,#647);
#11=CONTEXT_DEPENDENT_SHAPE_REPRESENTATION(#15,#649);
#12=NEXT_ASSEMBLY_USAGE_OCCURRENCE('NAUO1','DSCP076-E180 R',
'DSCP076-E180 R',#650,#651,'');
#13=NEXT_ASSEMBLY_USAGE_OCCURRENCE('NAUO2','DSCP076-E180 L',
'DSCP076-E180 L',#650,#652,'');
#14=(
REPRESENTATION_RELATIONSHIP(' ',' ',#381,#380)
REPRESENTATION_RELATIONSHIP_WITH_TRANSFORMATION(#16)
SHAPE_REPRESENTATION_RELATIONSHIP()
);
#15=(
REPRESENTATION_RELATIONSHIP(' ',' ',#382,#380)
REPRESENTATION_RELATIONSHIP_WITH_TRANSFORMATION(#17)
SHAPE_REPRESENTATION_RELATIONSHIP()
);
#16=ITEM_DEFINED_TRANSFORMATION(' ',' ',#383,#402);
#17=ITEM_DEFINED_TRANSFORMATION(' ',' ',#383,#421);
#18=SHAPE_REPRESENTATION_RELATIONSHIP('','',#381,#20);
#19=SHAPE_REPRESENTATION_RELATIONSHIP('','',#382,#21);
#20=ADVANCED_BREP_SHAPE_REPRESENTATION('',(#375),#637);
#21=ADVANCED_BREP_SHAPE_REPRESENTATION('',(#376),#638);
#22=PLANE('',#387);
#23=PLANE('',#391);
#24=PLANE('',#395);
#25=PLANE('',#399);
#26=PLANE('',#400);
#27=PLANE('',#401);
#28=PLANE('',#403);
#29=PLANE('',#407);
#30=PLANE('',#411);
#31=PLANE('',#415);
#32=PLANE('',#419);
#33=PLANE('',#420);
#34=LINE('',#537,#66);
#35=LINE('',#541,#67);
#36=LINE('',#543,#68);
#37=LINE('',#545,#69);
#38=LINE('',#547,#70);
#39=LINE('',#551,#71);
#40=LINE('',#555,#72);
#41=LINE('',#557,#73);
#42=LINE('',#559,#74);
#43=LINE('',#563,#75);
#44=LINE('',#567,#76);
#45=LINE('',#569,#77);
#46=LINE('',#571,#78);
#47=LINE('',#575,#79);
#48=LINE('',#579,#80);
#49=LINE('',#580,#81);
#50=LINE('',#585,#82);
#51=LINE('',#588,#83);
#52=LINE('',#590,#84);
#53=LINE('',#592,#85);
#54=LINE('',#596,#86);
#55=LINE('',#600,#87);
#56=LINE('',#602,#88);
#57=LINE('',#604,#89);
#58=LINE('',#608,#90);
#59=LINE('',#612,#91);
#60=LINE('',#614,#92);
#61=LINE('',#616,#93);
#62=LINE('',#620,#94);
#63=LINE('',#624,#95);
#64=LINE('',#626,#96);
#65=LINE('',#628,#97);
#66=VECTOR('',#428,1.);
#67=VECTOR('',#431,1.);
#68=VECTOR('',#434,1.);
#69=VECTOR('',#435,1.);
#70=VECTOR('',#436,1.);
#71=VECTOR('',#441,1.);
#72=VECTOR('',#446,1.);
#73=VECTOR('',#447,1.);
#74=VECTOR('',#448,1.);
#75=VECTOR('',#453,1.);
#76=VECTOR('',#458,1.);
#77=VECTOR('',#459,1.);
#78=VECTOR('',#460,1.);
#79=VECTOR('',#465,1.);
#80=VECTOR('',#470,1.);
#81=VECTOR('',#471,1.);
#82=VECTOR('',#480,1.);
#83=VECTOR('',#481,1.);
#84=VECTOR('',#482,1.);
#85=VECTOR('',#483,1.);
#86=VECTOR('',#488,1.);
#87=VECTOR('',#493,1.);
#88=VECTOR('',#494,1.);
#89=VECTOR('',#495,1.);
#90=VECTOR('',#500,1.);
#91=VECTOR('',#505,1.);
#92=VECTOR('',#506,1.);
#93=VECTOR('',#507,1.);
#94=VECTOR('',#512,1.);
#95=VECTOR('',#517,1.);
#96=VECTOR('',#518,1.);
#97=VECTOR('',#519,1.);
#98=ORIENTED_EDGE('',*,*,#194,.F.);
#99=ORIENTED_EDGE('',*,*,#195,.F.);
#100=ORIENTED_EDGE('',*,*,#196,.T.);
#101=ORIENTED_EDGE('',*,*,#197,.T.);
#102=ORIENTED_EDGE('',*,*,#198,.T.);
#103=ORIENTED_EDGE('',*,*,#199,.F.);
#104=ORIENTED_EDGE('',*,*,#200,.F.);
#105=ORIENTED_EDGE('',*,*,#195,.T.);
#106=ORIENTED_EDGE('',*,*,#201,.F.);
#107=ORIENTED_EDGE('',*,*,#202,.F.);
#108=ORIENTED_EDGE('',*,*,#203,.T.);
#109=ORIENTED_EDGE('',*,*,#199,.T.);
#110=ORIENTED_EDGE('',*,*,#204,.T.);
#111=ORIENTED_EDGE('',*,*,#205,.F.);
#112=ORIENTED_EDGE('',*,*,#206,.F.);
#113=ORIENTED_EDGE('',*,*,#202,.T.);
#114=ORIENTED_EDGE('',*,*,#207,.T.);
#115=ORIENTED_EDGE('',*,*,#208,.F.);
#116=ORIENTED_EDGE('',*,*,#209,.F.);
#117=ORIENTED_EDGE('',*,*,#205,.T.);
#118=ORIENTED_EDGE('',*,*,#210,.F.);
#119=ORIENTED_EDGE('',*,*,#211,.F.);
#120=ORIENTED_EDGE('',*,*,#212,.T.);
#121=ORIENTED_EDGE('',*,*,#208,.T.);
#122=ORIENTED_EDGE('',*,*,#213,.F.);
#123=ORIENTED_EDGE('',*,*,#214,.F.);
#124=ORIENTED_EDGE('',*,*,#215,.T.);
#125=ORIENTED_EDGE('',*,*,#211,.T.);
#126=ORIENTED_EDGE('',*,*,#216,.T.);
#127=ORIENTED_EDGE('',*,*,#197,.F.);
#128=ORIENTED_EDGE('',*,*,#217,.F.);
#129=ORIENTED_EDGE('',*,*,#214,.T.);
#130=ORIENTED_EDGE('',*,*,#196,.F.);
#131=ORIENTED_EDGE('',*,*,#200,.T.);
#132=ORIENTED_EDGE('',*,*,#203,.F.);
#133=ORIENTED_EDGE('',*,*,#206,.T.);
#134=ORIENTED_EDGE('',*,*,#209,.T.);
#135=ORIENTED_EDGE('',*,*,#212,.F.);
#136=ORIENTED_EDGE('',*,*,#215,.F.);
#137=ORIENTED_EDGE('',*,*,#217,.T.);
#138=ORIENTED_EDGE('',*,*,#194,.T.);
#139=ORIENTED_EDGE('',*,*,#216,.F.);
#140=ORIENTED_EDGE('',*,*,#213,.T.);
#141=ORIENTED_EDGE('',*,*,#210,.T.);
#142=ORIENTED_EDGE('',*,*,#207,.F.);
#143=ORIENTED_EDGE('',*,*,#204,.F.);
#144=ORIENTED_EDGE('',*,*,#201,.T.);
#145=ORIENTED_EDGE('',*,*,#198,.F.);
#146=ORIENTED_EDGE('',*,*,#218,.F.);
#147=ORIENTED_EDGE('',*,*,#219,.F.);
#148=ORIENTED_EDGE('',*,*,#220,.T.);
#149=ORIENTED_EDGE('',*,*,#221,.T.);
#150=ORIENTED_EDGE('',*,*,#222,.F.);
#151=ORIENTED_EDGE('',*,*,#223,.F.);
#152=ORIENTED_EDGE('',*,*,#224,.T.);
#153=ORIENTED_EDGE('',*,*,#219,.T.);
#154=ORIENTED_EDGE('',*,*,#225,.T.);
#155=ORIENTED_EDGE('',*,*,#226,.F.);
#156=ORIENTED_EDGE('',*,*,#227,.F.);
#157=ORIENTED_EDGE('',*,*,#223,.T.);
#158=ORIENTED_EDGE('',*,*,#228,.T.);
#159=ORIENTED_EDGE('',*,*,#229,.F.);
#160=ORIENTED_EDGE('',*,*,#230,.F.);
#161=ORIENTED_EDGE('',*,*,#226,.T.);
#162=ORIENTED_EDGE('',*,*,#231,.F.);
#163=ORIENTED_EDGE('',*,*,#232,.F.);
#164=ORIENTED_EDGE('',*,*,#233,.T.);
#165=ORIENTED_EDGE('',*,*,#229,.T.);
#166=ORIENTED_EDGE('',*,*,#234,.F.);
#167=ORIENTED_EDGE('',*,*,#235,.F.);
#168=ORIENTED_EDGE('',*,*,#236,.T.);
#169=ORIENTED_EDGE('',*,*,#232,.T.);
#170=ORIENTED_EDGE('',*,*,#237,.T.);
#171=ORIENTED_EDGE('',*,*,#238,.F.);
#172=ORIENTED_EDGE('',*,*,#239,.F.);
#173=ORIENTED_EDGE('',*,*,#235,.T.);
#174=ORIENTED_EDGE('',*,*,#240,.F.);
#175=ORIENTED_EDGE('',*,*,#221,.F.);
#176=ORIENTED_EDGE('',*,*,#241,.T.);
#177=ORIENTED_EDGE('',*,*,#238,.T.);
#178=ORIENTED_EDGE('',*,*,#220,.F.);
#179=ORIENTED_EDGE('',*,*,#224,.F.);
#180=ORIENTED_EDGE('',*,*,#227,.T.);
#181=ORIENTED_EDGE('',*,*,#230,.T.);
#182=ORIENTED_EDGE('',*,*,#233,.F.);
#183=ORIENTED_EDGE('',*,*,#236,.F.);
#184=ORIENTED_EDGE('',*,*,#239,.T.);
#185=ORIENTED_EDGE('',*,*,#241,.F.);
#186=ORIENTED_EDGE('',*,*,#218,.T.);
#187=ORIENTED_EDGE('',*,*,#240,.T.);
#188=ORIENTED_EDGE('',*,*,#237,.F.);
#189=ORIENTED_EDGE('',*,*,#234,.T.);
#190=ORIENTED_EDGE('',*,*,#231,.T.);
#191=ORIENTED_EDGE('',*,*,#228,.F.);
#192=ORIENTED_EDGE('',*,*,#225,.F.);
#193=ORIENTED_EDGE('',*,*,#222,.T.);
#194=EDGE_CURVE('',#242,#243,#274,.T.);
#195=EDGE_CURVE('',#244,#242,#34,.T.);
#196=EDGE_CURVE('',#244,#245,#275,.T.);
#197=EDGE_CURVE('',#245,#243,#35,.T.);
#198=EDGE_CURVE('',#242,#246,#36,.T.);
#199=EDGE_CURVE('',#247,#246,#37,.T.);
#200=EDGE_CURVE('',#244,#247,#38,.T.);
#201=EDGE_CURVE('',#248,#246,#276,.T.);
#202=EDGE_CURVE('',#249,#248,#39,.T.);
#203=EDGE_CURVE('',#249,#247,#277,.T.);
#204=EDGE_CURVE('',#248,#250,#40,.T.);
#205=EDGE_CURVE('',#251,#250,#41,.T.);
#206=EDGE_CURVE('',#249,#251,#42,.T.);
#207=EDGE_CURVE('',#250,#252,#278,.T.);
#208=EDGE_CURVE('',#253,#252,#43,.T.);
#209=EDGE_CURVE('',#251,#253,#279,.T.);
#210=EDGE_CURVE('',#254,#252,#44,.T.);
#211=EDGE_CURVE('',#255,#254,#45,.T.);
#212=EDGE_CURVE('',#255,#253,#46,.T.);
#213=EDGE_CURVE('',#256,#254,#280,.T.);
#214=EDGE_CURVE('',#257,#256,#47,.T.);
#215=EDGE_CURVE('',#257,#255,#281,.T.);
#216=EDGE_CURVE('',#256,#243,#48,.T.);
#217=EDGE_CURVE('',#257,#245,#49,.T.);
#218=EDGE_CURVE('',#258,#259,#50,.T.);
#219=EDGE_CURVE('',#260,#258,#51,.T.);
#220=EDGE_CURVE('',#260,#261,#52,.T.);
#221=EDGE_CURVE('',#261,#259,#53,.T.);
#222=EDGE_CURVE('',#262,#258,#282,.T.);
#223=EDGE_CURVE('',#263,#262,#54,.T.);
#224=EDGE_CURVE('',#263,#260,#283,.T.);
#225=EDGE_CURVE('',#262,#264,#55,.T.);
#226=EDGE_CURVE('',#265,#264,#56,.T.);
#227=EDGE_CURVE('',#263,#265,#57,.T.);
#228=EDGE_CURVE('',#264,#266,#284,.T.);
#229=EDGE_CURVE('',#267,#266,#58,.T.);
#230=EDGE_CURVE('',#265,#267,#285,.T.);
#231=EDGE_CURVE('',#268,#266,#59,.T.);
#232=EDGE_CURVE('',#269,#268,#60,.T.);
#233=EDGE_CURVE('',#269,#267,#61,.T.);
#234=EDGE_CURVE('',#270,#268,#286,.T.);
#235=EDGE_CURVE('',#271,#270,#62,.T.);
#236=EDGE_CURVE('',#271,#269,#287,.T.);
#237=EDGE_CURVE('',#270,#272,#63,.T.);
#238=EDGE_CURVE('',#273,#272,#64,.T.);
#239=EDGE_CURVE('',#271,#273,#65,.T.);
#240=EDGE_CURVE('',#259,#272,#288,.T.);
#241=EDGE_CURVE('',#261,#273,#289,.T.);
#242=VERTEX_POINT('',#535);
#243=VERTEX_POINT('',#536);
#244=VERTEX_POINT('',#538);
#245=VERTEX_POINT('',#540);
#246=VERTEX_POINT('',#544);
#247=VERTEX_POINT('',#546);
#248=VERTEX_POINT('',#550);
#249=VERTEX_POINT('',#552);
#250=VERTEX_POINT('',#556);
#251=VERTEX_POINT('',#558);
#252=VERTEX_POINT('',#562);
#253=VERTEX_POINT('',#564);
#254=VERTEX_POINT('',#568);
#255=VERTEX_POINT('',#570);
#256=VERTEX_POINT('',#574);
#257=VERTEX_POINT('',#576);
#258=VERTEX_POINT('',#586);
#259=VERTEX_POINT('',#587);
#260=VERTEX_POINT('',#589);
#261=VERTEX_POINT('',#591);
#262=VERTEX_POINT('',#595);
#263=VERTEX_POINT('',#597);
#264=VERTEX_POINT('',#601);
#265=VERTEX_POINT('',#603);
#266=VERTEX_POINT('',#607);
#267=VERTEX_POINT('',#609);
#268=VERTEX_POINT('',#613);
#269=VERTEX_POINT('',#615);
#270=VERTEX_POINT('',#619);
#271=VERTEX_POINT('',#621);
#272=VERTEX_POINT('',#625);
#273=VERTEX_POINT('',#627);
#274=CIRCLE('',#385,0.0124644741880316);
#275=CIRCLE('',#386,0.0124644741880316);
#276=CIRCLE('',#389,0.004318);
#277=CIRCLE('',#390,0.004318);
#278=CIRCLE('',#393,0.0275708481573745);
#279=CIRCLE('',#394,0.0275708481573745);
#280=CIRCLE('',#397,0.004318);
#281=CIRCLE('',#398,0.004318);
#282=CIRCLE('',#405,0.004318);
#283=CIRCLE('',#406,0.004318);
#284=CIRCLE('',#409,0.0275708481573745);
#285=CIRCLE('',#410,0.0275708481573745);
#286=CIRCLE('',#413,0.004318);
#287=CIRCLE('',#414,0.004318);
#288=CIRCLE('',#417,0.0124644741880316);
#289=CIRCLE('',#418,0.0124644741880316);
#290=EDGE_LOOP('',(#98,#99,#100,#101));
#291=EDGE_LOOP('',(#102,#103,#104,#105));
#292=EDGE_LOOP('',(#106,#107,#108,#109));
#293=EDGE_LOOP('',(#110,#111,#112,#113));
#294=EDGE_LOOP('',(#114,#115,#116,#117));
#295=EDGE_LOOP('',(#118,#119,#120,#121));
#296=EDGE_LOOP('',(#122,#123,#124,#125));
#297=EDGE_LOOP('',(#126,#127,#128,#129));
#298=EDGE_LOOP('',(#130,#131,#132,#133,#134,#135,#136,#137));
#299=EDGE_LOOP('',(#138,#139,#140,#141,#142,#143,#144,#145));
#300=EDGE_LOOP('',(#146,#147,#148,#149));
#301=EDGE_LOOP('',(#150,#151,#152,#153));
#302=EDGE_LOOP('',(#154,#155,#156,#157));
#303=EDGE_LOOP('',(#158,#159,#160,#161));
#304=EDGE_LOOP('',(#162,#163,#164,#165));
#305=EDGE_LOOP('',(#166,#167,#168,#169));
#306=EDGE_LOOP('',(#170,#171,#172,#173));
#307=EDGE_LOOP('',(#174,#175,#176,#177));
#308=EDGE_LOOP('',(#178,#179,#180,#181,#182,#183,#184,#185));
#309=EDGE_LOOP('',(#186,#187,#188,#189,#190,#191,#192,#193));
#310=FACE_BOUND('',#290,.T.);
#311=FACE_BOUND('',#291,.T.);
#312=FACE_BOUND('',#292,.T.);
#313=FACE_BOUND('',#293,.T.);
#314=FACE_BOUND('',#294,.T.);
#315=FACE_BOUND('',#295,.T.);
#316=FACE_BOUND('',#296,.T.);
#317=FACE_BOUND('',#297,.T.);
#318=FACE_BOUND('',#298,.T.);
#319=FACE_BOUND('',#299,.T.);
#320=FACE_BOUND('',#300,.T.);
#321=FACE_BOUND('',#301,.T.);
#322=FACE_BOUND('',#302,.T.);
#323=FACE_BOUND('',#303,.T.);
#324=FACE_BOUND('',#304,.T.);
#325=FACE_BOUND('',#305,.T.);
#326=FACE_BOUND('',#306,.T.);
#327=FACE_BOUND('',#307,.T.);
#328=FACE_BOUND('',#308,.T.);
#329=FACE_BOUND('',#309,.T.);
#330=CYLINDRICAL_SURFACE('',#384,0.0124644741880316);
#331=CYLINDRICAL_SURFACE('',#388,0.004318);
#332=CYLINDRICAL_SURFACE('',#392,0.0275708481573745);
#333=CYLINDRICAL_SURFACE('',#396,0.004318);
#334=CYLINDRICAL_SURFACE('',#404,0.004318);
#335=CYLINDRICAL_SURFACE('',#408,0.0275708481573745);
#336=CYLINDRICAL_SURFACE('',#412,0.004318);
#337=CYLINDRICAL_SURFACE('',#416,0.0124644741880316);
#338=ADVANCED_FACE('',(#310),#330,.F.);
#339=ADVANCED_FACE('',(#311),#22,.F.);
#340=ADVANCED_FACE('',(#312),#331,.F.);
#341=ADVANCED_FACE('',(#313),#23,.F.);
#342=ADVANCED_FACE('',(#314),#332,.T.);
#343=ADVANCED_FACE('',(#315),#24,.T.);
#344=ADVANCED_FACE('',(#316),#333,.F.);
#345=ADVANCED_FACE('',(#317),#25,.F.);
#346=ADVANCED_FACE('',(#318),#26,.T.);
#347=ADVANCED_FACE('',(#319),#27,.F.);
#348=ADVANCED_FACE('',(#320),#28,.T.);
#349=ADVANCED_FACE('',(#321),#334,.F.);
#350=ADVANCED_FACE('',(#322),#29,.F.);
#351=ADVANCED_FACE('',(#323),#335,.T.);
#352=ADVANCED_FACE('',(#324),#30,.T.);
#353=ADVANCED_FACE('',(#325),#336,.F.);
#354=ADVANCED_FACE('',(#326),#31,.F.);
#355=ADVANCED_FACE('',(#327),#337,.F.);
#356=ADVANCED_FACE('',(#328),#32,.T.);
#357=ADVANCED_FACE('',(#329),#33,.F.);
#358=CLOSED_SHELL('',(#338,#339,#340,#341,#342,#343,#344,#345,#346,#347));
#359=CLOSED_SHELL('',(#348,#349,#350,#351,#352,#353,#354,#355,#356,#357));
#360=STYLED_ITEM('',(#362),#375);
#361=STYLED_ITEM('',(#363),#376);
#362=PRESENTATION_STYLE_ASSIGNMENT((#364));
#363=PRESENTATION_STYLE_ASSIGNMENT((#365));
#364=SURFACE_STYLE_USAGE(.BOTH.,#366);
#365=SURFACE_STYLE_USAGE(.BOTH.,#367);
#366=SURFACE_SIDE_STYLE('',(#368));
#367=SURFACE_SIDE_STYLE('',(#369));
#368=SURFACE_STYLE_FILL_AREA(#370);
#369=SURFACE_STYLE_FILL_AREA(#371);
#370=FILL_AREA_STYLE('',(#372));
#371=FILL_AREA_STYLE('',(#373));
#372=FILL_AREA_STYLE_COLOUR('',#374);
#373=FILL_AREA_STYLE_COLOUR('',#374);
#374=COLOUR_RGB('',0.498039215686275,0.498039215686275,0.498039215686275);
#375=MANIFOLD_SOLID_BREP('DSCP076-E180 R',#358);
#376=MANIFOLD_SOLID_BREP('DSCP076-E180 L',#359);
#377=SHAPE_DEFINITION_REPRESENTATION(#645,#380);
#378=SHAPE_DEFINITION_REPRESENTATION(#646,#381);
#379=SHAPE_DEFINITION_REPRESENTATION(#648,#382);
#380=SHAPE_REPRESENTATION('P076 set',(#383,#402,#421),#636);
#381=SHAPE_REPRESENTATION('DSCP076-E180 R',(#383),#637);
#382=SHAPE_REPRESENTATION('DSCP076-E180 L',(#383),#638);
#383=AXIS2_PLACEMENT_3D('',#532,#422,#423);
#384=AXIS2_PLACEMENT_3D('',#533,#424,#425);
#385=AXIS2_PLACEMENT_3D('',#534,#426,#427);
#386=AXIS2_PLACEMENT_3D('',#539,#429,#430);
#387=AXIS2_PLACEMENT_3D('',#542,#432,#433);
#388=AXIS2_PLACEMENT_3D('',#548,#437,#438);
#389=AXIS2_PLACEMENT_3D('',#549,#439,#440);
#390=AXIS2_PLACEMENT_3D('',#553,#442,#443);
#391=AXIS2_PLACEMENT_3D('',#554,#444,#445);
#392=AXIS2_PLACEMENT_3D('',#560,#449,#450);
#393=AXIS2_PLACEMENT_3D('',#561,#451,#452);
#394=AXIS2_PLACEMENT_3D('',#565,#454,#455);
#395=AXIS2_PLACEMENT_3D('',#566,#456,#457);
#396=AXIS2_PLACEMENT_3D('',#572,#461,#462);
#397=AXIS2_PLACEMENT_3D('',#573,#463,#464);
#398=AXIS2_PLACEMENT_3D('',#577,#466,#467);
#399=AXIS2_PLACEMENT_3D('',#578,#468,#469);
#400=AXIS2_PLACEMENT_3D('',#581,#472,#473);
#401=AXIS2_PLACEMENT_3D('',#582,#474,#475);
#402=AXIS2_PLACEMENT_3D('',#583,#476,#477);
#403=AXIS2_PLACEMENT_3D('',#584,#478,#479);
#404=AXIS2_PLACEMENT_3D('',#593,#484,#485);
#405=AXIS2_PLACEMENT_3D('',#594,#486,#487);
#406=AXIS2_PLACEMENT_3D('',#598,#489,#490);
#407=AXIS2_PLACEMENT_3D('',#599,#491,#492);
#408=AXIS2_PLACEMENT_3D('',#605,#496,#497);
#409=AXIS2_PLACEMENT_3D('',#606,#498,#499);
#410=AXIS2_PLACEMENT_3D('',#610,#501,#502);
#411=AXIS2_PLACEMENT_3D('',#611,#503,#504);
#412=AXIS2_PLACEMENT_3D('',#617,#508,#509);
#413=AXIS2_PLACEMENT_3D('',#618,#510,#511);
#414=AXIS2_PLACEMENT_3D('',#622,#513,#514);
#415=AXIS2_PLACEMENT_3D('',#623,#515,#516);
#416=AXIS2_PLACEMENT_3D('',#629,#520,#521);
#417=AXIS2_PLACEMENT_3D('',#630,#522,#523);
#418=AXIS2_PLACEMENT_3D('',#631,#524,#525);
#419=AXIS2_PLACEMENT_3D('',#632,#526,#527);
#420=AXIS2_PLACEMENT_3D('',#633,#528,#529);
#421=AXIS2_PLACEMENT_3D('',#634,#530,#531);
#422=DIRECTION('',(0.,0.,1.));
#423=DIRECTION('',(1.,0.,0.));
#424=DIRECTION('',(0.,0.,-1.));
#425=DIRECTION('',(-1.,0.,0.));
#426=DIRECTION('',(0.,0.,1.));
#427=DIRECTION('',(1.,0.,0.));
#428=DIRECTION('',(0.,0.,-1.));
#429=DIRECTION('',(0.,0.,1.));
#430=DIRECTION('',(1.,0.,0.));
#431=DIRECTION('',(0.,0.,-1.));
#432=DIRECTION('',(1.,0.,0.));
#433=DIRECTION('',(0.,0.,-1.));
#434=DIRECTION('',(0.,-1.,0.));
#435=DIRECTION('',(0.,0.,-1.));
#436=DIRECTION('',(0.,-1.,0.));
#437=DIRECTION('',(0.,0.,-1.));
#438=DIRECTION('',(-1.,0.,0.));
#439=DIRECTION('',(0.,0.,1.));
#440=DIRECTION('',(1.,0.,0.));
#441=DIRECTION('',(0.,0.,-1.));
#442=DIRECTION('',(0.,0.,1.));
#443=DIRECTION('',(1.,0.,0.));
#444=DIRECTION('',(1.,0.,0.));
#445=DIRECTION('',(0.,0.,-1.));
#446=DIRECTION('',(0.,-1.,0.));
#447=DIRECTION('',(0.,0.,-1.));
#448=DIRECTION('',(0.,-1.,0.));
#449=DIRECTION('',(0.,0.,-1.));
#450=DIRECTION('',(-1.,0.,0.));
#451=DIRECTION('',(0.,0.,1.));
#452=DIRECTION('',(1.,0.,0.));
#453=DIRECTION('',(0.,0.,-1.));
#454=DIRECTION('',(0.,0.,1.));
#455=DIRECTION('',(1.,0.,0.));
#456=DIRECTION('',(-1.,0.,0.));
#457=DIRECTION('',(0.,0.,1.));
#458=DIRECTION('',(0.,1.,0.));
#459=DIRECTION('',(0.,0.,-1.));
#460=DIRECTION('',(0.,1.,0.));
#461=DIRECTION('',(0.,0.,-1.));
#462=DIRECTION('',(-1.,0.,0.));
#463=DIRECTION('',(0.,0.,1.));
#464=DIRECTION('',(1.,0.,0.));
#465=DIRECTION('',(0.,0.,-1.));
#466=DIRECTION('',(0.,0.,1.));
#467=DIRECTION('',(1.,0.,0.));
#468=DIRECTION('',(1.,0.,0.));
#469=DIRECTION('',(0.,0.,-1.));
#470=DIRECTION('',(0.,-1.,0.));
#471=DIRECTION('',(0.,-1.,0.));
#472=DIRECTION('',(0.,0.,1.));
#473=DIRECTION('',(1.,0.,0.));
#474=DIRECTION('',(0.,0.,1.));
#475=DIRECTION('',(1.,0.,0.));
#476=DIRECTION('',(0.,0.,1.));
#477=DIRECTION('',(1.,0.,0.));
#478=DIRECTION('',(1.,0.,0.));
#479=DIRECTION('',(0.,0.,-1.));
#480=DIRECTION('',(0.,-1.,0.));
#481=DIRECTION('',(0.,0.,-1.));
#482=DIRECTION('',(0.,-1.,0.));
#483=DIRECTION('',(0.,0.,-1.));
#484=DIRECTION('',(0.,0.,-1.));
#485=DIRECTION('',(-1.,0.,0.));
#486=DIRECTION('',(0.,0.,1.));
#487=DIRECTION('',(1.,0.,0.));
#488=DIRECTION('',(0.,0.,-1.));
#489=DIRECTION('',(0.,0.,1.));
#490=DIRECTION('',(1.,0.,0.));
#491=DIRECTION('',(-1.,0.,0.));
#492=DIRECTION('',(0.,0.,1.));
#493=DIRECTION('',(0.,1.,0.));
#494=DIRECTION('',(0.,0.,-1.));
#495=DIRECTION('',(0.,1.,0.));
#496=DIRECTION('',(0.,0.,-1.));
#497=DIRECTION('',(-1.,0.,0.));
#498=DIRECTION('',(0.,0.,1.));
#499=DIRECTION('',(1.,0.,0.));
#500=DIRECTION('',(0.,0.,-1.));
#501=DIRECTION('',(0.,0.,1.));
#502=DIRECTION('',(1.,0.,0.));
#503=DIRECTION('',(1.,0.,0.));
#504=DIRECTION('',(0.,0.,-1.));
#505=DIRECTION('',(0.,-1.,0.));
#506=DIRECTION('',(0.,0.,-1.));
#507=DIRECTION('',(0.,-1.,0.));
#508=DIRECTION('',(0.,0.,-1.));
#509=DIRECTION('',(-1.,0.,0.));
#510=DIRECTION('',(0.,0.,1.));
#511=DIRECTION('',(1.,0.,0.));
#512=DIRECTION('',(0.,0.,-1.));
#513=DIRECTION('',(0.,0.,1.));
#514=DIRECTION('',(1.,0.,0.));
#515=DIRECTION('',(-1.,0.,0.));
#516=DIRECTION('',(0.,0.,1.));
#517=DIRECTION('',(0.,1.,0.));
#518=DIRECTION('',(0.,0.,-1.));
#519=DIRECTION('',(0.,1.,0.));
#520=DIRECTION('',(0.,0.,-1.));
#521=DIRECTION('',(-1.,0.,0.));
#522=DIRECTION('',(0.,0.,1.));
#523=DIRECTION('',(1.,0.,0.));
#524=DIRECTION('',(0.,0.,1.));
#525=DIRECTION('',(1.,0.,0.));
#526=DIRECTION('',(0.,0.,1.));
#527=DIRECTION('',(1.,0.,0.));
#528=DIRECTION('',(0.,0.,1.));
#529=DIRECTION('',(1.,0.,0.));
#530=DIRECTION('',(0.,0.,1.));
#531=DIRECTION('',(1.,0.,0.));
#532=CARTESIAN_POINT('',(0.,0.,0.));
#533=CARTESIAN_POINT('',(-0.030646056720874,0.0286268079925537,0.004572));
#534=CARTESIAN_POINT('',(-0.030646056720874,0.0286268079925537,0.));
#535=CARTESIAN_POINT('',(-0.0289761695855203,0.0162746991143384,0.));
#536=CARTESIAN_POINT('',(-0.0289761695855203,0.040978916870769,0.));
#537=CARTESIAN_POINT('',(-0.0289761695855203,0.0162746991143384,0.004572));
#538=CARTESIAN_POINT('',(-0.0289761695855203,0.0162746991143384,0.004572));
#539=CARTESIAN_POINT('',(-0.030646056720874,0.0286268079925537,0.004572));
#540=CARTESIAN_POINT('',(-0.0289761695855203,0.040978916870769,0.004572));
#541=CARTESIAN_POINT('',(-0.0289761695855203,0.040978916870769,0.004572));
#542=CARTESIAN_POINT('',(-0.0289761695855203,0.0145357709413146,0.004572));
#543=CARTESIAN_POINT('',(-0.0289761695855203,0.0145357709413146,0.));
#544=CARTESIAN_POINT('',(-0.0289761695855203,0.0127968427682909,0.));
#545=CARTESIAN_POINT('',(-0.0289761695855203,0.0127968427682909,0.004572));
#546=CARTESIAN_POINT('',(-0.0289761695855203,0.0127968427682909,0.004572));
#547=CARTESIAN_POINT('',(-0.0289761695855203,0.0145357709413146,0.004572));
#548=CARTESIAN_POINT('',(-0.030646056720874,0.00881480799255371,0.004572));
#549=CARTESIAN_POINT('',(-0.030646056720874,0.00881480799255371,0.));
#550=CARTESIAN_POINT('',(-0.0289761695855203,0.00483277321681657,0.));
#551=CARTESIAN_POINT('',(-0.0289761695855203,0.00483277321681657,0.004572));
#552=CARTESIAN_POINT('',(-0.0289761695855203,0.00483277321681657,0.004572));
#553=CARTESIAN_POINT('',(-0.030646056720874,0.00881480799255371,0.004572));
#554=CARTESIAN_POINT('',(-0.0289761695855203,0.00296967482508337,0.004572));
#555=CARTESIAN_POINT('',(-0.0289761695855203,0.00296967482508337,0.));
#556=CARTESIAN_POINT('',(-0.0289761695855203,0.00110657643335016,0.));
#557=CARTESIAN_POINT('',(-0.0289761695855203,0.00110657643335016,0.004572));
#558=CARTESIAN_POINT('',(-0.0289761695855203,0.00110657643335016,0.004572));
#559=CARTESIAN_POINT('',(-0.0289761695855203,0.00296967482508337,0.004572));
#560=CARTESIAN_POINT('',(-0.030646056720874,0.0286268079925534,0.004572));
#561=CARTESIAN_POINT('',(-0.030646056720874,0.0286268079925534,0.));
#562=CARTESIAN_POINT('',(-0.0289761695855203,0.0561470395517573,0.));
#563=CARTESIAN_POINT('',(-0.0289761695855203,0.0561470395517573,0.004572));
#564=CARTESIAN_POINT('',(-0.0289761695855203,0.0561470395517573,0.004572));
#565=CARTESIAN_POINT('',(-0.030646056720874,0.0286268079925534,0.004572));
#566=CARTESIAN_POINT('',(-0.0289761695855203,0.0542830572555482,0.004572));
#567=CARTESIAN_POINT('',(-0.0289761695855203,0.0542830572555482,0.));
#568=CARTESIAN_POINT('',(-0.0289761695855203,0.0524190749593391,0.));
#569=CARTESIAN_POINT('',(-0.0289761695855203,0.0524190749593391,0.004572));
#570=CARTESIAN_POINT('',(-0.0289761695855203,0.0524190749593391,0.004572));
#571=CARTESIAN_POINT('',(-0.0289761695855203,0.0542830572555482,0.004572));
#572=CARTESIAN_POINT('',(-0.0306502649577422,0.0484388075456211,0.004572));
#573=CARTESIAN_POINT('',(-0.0306502649577422,0.0484388075456211,0.));
#574=CARTESIAN_POINT('',(-0.0289761695855203,0.0444585401319031,0.));
#575=CARTESIAN_POINT('',(-0.0289761695855203,0.0444585401319031,0.004572));
#576=CARTESIAN_POINT('',(-0.0289761695855203,0.0444585401319031,0.004572));
#577=CARTESIAN_POINT('',(-0.0306502649577422,0.0484388075456211,0.004572));
#578=CARTESIAN_POINT('',(-0.0289761695855203,0.042718728501336,0.004572));
#579=CARTESIAN_POINT('',(-0.0289761695855203,0.042718728501336,0.));
#580=CARTESIAN_POINT('',(-0.0289761695855203,0.042718728501336,0.004572));
#581=CARTESIAN_POINT('',(-0.030646056720874,0.0286268079925537,0.004572));
#582=CARTESIAN_POINT('',(-0.030646056720874,0.0286268079925537,0.));
#583=CARTESIAN_POINT('',(0.0304678919620381,-0.0286225944040996,-0.00212538441437204));
#584=CARTESIAN_POINT('',(-0.0318899295024412,0.0426658222147962,0.004572));
#585=CARTESIAN_POINT('',(-0.0318899295024412,0.0426658222147962,0.));
#586=CARTESIAN_POINT('',(-0.0318899295024412,0.0443025827189687,0.));
#587=CARTESIAN_POINT('',(-0.0318899295024412,0.0410290617106238,0.));
#588=CARTESIAN_POINT('',(-0.0318899295024412,0.0443025827189687,0.004572));
#589=CARTESIAN_POINT('',(-0.0318899295024412,0.0443025827189687,0.004572));
#590=CARTESIAN_POINT('',(-0.0318899295024412,0.0426658222147962,0.004572));
#591=CARTESIAN_POINT('',(-0.0318899295024412,0.0410290617106238,0.004572));
#592=CARTESIAN_POINT('',(-0.0318899295024412,0.0410290617106238,0.004572));
#593=CARTESIAN_POINT('',(-0.0306502649577422,0.0484388075456211,0.004572));
#594=CARTESIAN_POINT('',(-0.0306502649577422,0.0484388075456211,0.));
#595=CARTESIAN_POINT('',(-0.0318899295024412,0.0525750323722735,0.));
#596=CARTESIAN_POINT('',(-0.0318899295024412,0.0525750323722735,0.004572));
#597=CARTESIAN_POINT('',(-0.0318899295024412,0.0525750323722735,0.004572));
#598=CARTESIAN_POINT('',(-0.0306502649577422,0.0484388075456211,0.004572));
#599=CARTESIAN_POINT('',(-0.0318899295024412,0.0543723076272236,0.004572));
#600=CARTESIAN_POINT('',(-0.0318899295024412,0.0543723076272236,0.));
#601=CARTESIAN_POINT('',(-0.0318899295024413,0.0561695828821737,0.));
#602=CARTESIAN_POINT('',(-0.0318899295024413,0.0561695828821737,0.004572));
#603=CARTESIAN_POINT('',(-0.0318899295024413,0.0561695828821737,0.004572));
#604=CARTESIAN_POINT('',(-0.0318899295024412,0.0543723076272236,0.004572));
#605=CARTESIAN_POINT('',(-0.030646056720874,0.0286268079925533,0.004572));
#606=CARTESIAN_POINT('',(-0.030646056720874,0.0286268079925533,0.));
#607=CARTESIAN_POINT('',(-0.0318899295024412,0.00108403310293376,0.));
#608=CARTESIAN_POINT('',(-0.0318899295024412,0.00108403310293376,0.004572));
#609=CARTESIAN_POINT('',(-0.0318899295024412,0.00108403310293376,0.004572));
#610=CARTESIAN_POINT('',(-0.030646056720874,0.0286268079925533,0.004572));
#611=CARTESIAN_POINT('',(-0.0318899295024412,0.00288193992490369,0.004572));
#612=CARTESIAN_POINT('',(-0.0318899295024412,0.00288193992490369,0.));
#613=CARTESIAN_POINT('',(-0.0318899295024412,0.00467984674687362,0.));
#614=CARTESIAN_POINT('',(-0.0318899295024412,0.00467984674687362,0.004572));
#615=CARTESIAN_POINT('',(-0.0318899295024412,0.00467984674687362,0.004572));
#616=CARTESIAN_POINT('',(-0.0318899295024412,0.00288193992490369,0.004572));
#617=CARTESIAN_POINT('',(-0.030646056720874,0.00881480799255371,0.004572));
#618=CARTESIAN_POINT('',(-0.030646056720874,0.00881480799255371,0.));
#619=CARTESIAN_POINT('',(-0.0318899295024412,0.0129497692382338,0.));
#620=CARTESIAN_POINT('',(-0.0318899295024412,0.0129497692382338,0.004572));
#621=CARTESIAN_POINT('',(-0.0318899295024412,0.0129497692382338,0.004572));
#622=CARTESIAN_POINT('',(-0.030646056720874,0.00881480799255371,0.004572));
#623=CARTESIAN_POINT('',(-0.0318899295024412,0.0145871617563587,0.004572));
#624=CARTESIAN_POINT('',(-0.0318899295024412,0.0145871617563587,0.));
#625=CARTESIAN_POINT('',(-0.0318899295024412,0.0162245542744837,0.));
#626=CARTESIAN_POINT('',(-0.0318899295024412,0.0162245542744837,0.004572));
#627=CARTESIAN_POINT('',(-0.0318899295024412,0.0162245542744837,0.004572));
#628=CARTESIAN_POINT('',(-0.0318899295024412,0.0145871617563587,0.004572));
#629=CARTESIAN_POINT('',(-0.030646056720874,0.0286268079925536,0.004572));
#630=CARTESIAN_POINT('',(-0.030646056720874,0.0286268079925536,0.));
#631=CARTESIAN_POINT('',(-0.030646056720874,0.0286268079925536,0.004572));
#632=CARTESIAN_POINT('',(-0.030646056720874,0.0286268079925537,0.004572));
#633=CARTESIAN_POINT('',(-0.030646056720874,0.0286268079925537,0.));
#634=CARTESIAN_POINT('',(0.0304678919620381,-0.0286225944040996,-0.00212538441437204));
#635=MECHANICAL_DESIGN_GEOMETRIC_PRESENTATION_REPRESENTATION('',(#360,#361),
#636);
#636=(
GEOMETRIC_REPRESENTATION_CONTEXT(3)
GLOBAL_UNCERTAINTY_ASSIGNED_CONTEXT((#639))
GLOBAL_UNIT_ASSIGNED_CONTEXT((#644,#643,#642))
REPRESENTATION_CONTEXT('P076 set','TOP_LEVEL_ASSEMBLY_PART')
);
#637=(
GEOMETRIC_REPRESENTATION_CONTEXT(3)
GLOBAL_UNCERTAINTY_ASSIGNED_CONTEXT((#640))
GLOBAL_UNIT_ASSIGNED_CONTEXT((#644,#643,#642))
REPRESENTATION_CONTEXT('DSCP076-E180 R','COMPONENT_PART')
);
#638=(
GEOMETRIC_REPRESENTATION_CONTEXT(3)
GLOBAL_UNCERTAINTY_ASSIGNED_CONTEXT((#641))
GLOBAL_UNIT_ASSIGNED_CONTEXT((#644,#643,#642))
REPRESENTATION_CONTEXT('DSCP076-E180 L','COMPONENT_PART')
);
#639=UNCERTAINTY_MEASURE_WITH_UNIT(LENGTH_MEASURE(5.E-6),#644,
'DISTANCE_ACCURACY_VALUE','Maximum Tolerance applied to model');
#640=UNCERTAINTY_MEASURE_WITH_UNIT(LENGTH_MEASURE(5.E-6),#644,
'DISTANCE_ACCURACY_VALUE','Maximum Tolerance applied to model');
#641=UNCERTAINTY_MEASURE_WITH_UNIT(LENGTH_MEASURE(5.E-6),#644,
'DISTANCE_ACCURACY_VALUE','Maximum Tolerance applied to model');
#642=(
NAMED_UNIT(*)
SI_UNIT($,.STERADIAN.)
SOLID_ANGLE_UNIT()
);
#643=(
NAMED_UNIT(*)
PLANE_ANGLE_UNIT()
SI_UNIT($,.RADIAN.)
);
#644=(
LENGTH_UNIT()
NAMED_UNIT(*)
SI_UNIT($,.METRE.)
);
#645=PRODUCT_DEFINITION_SHAPE('','',#650);
#646=PRODUCT_DEFINITION_SHAPE('','',#651);
#647=PRODUCT_DEFINITION_SHAPE(' ','NAUO PRDDFN',#12);
#648=PRODUCT_DEFINITION_SHAPE('','',#652);
#649=PRODUCT_DEFINITION_SHAPE(' ','NAUO PRDDFN',#13);
#650=PRODUCT_DEFINITION('','',#656,#653);
#651=PRODUCT_DEFINITION('','',#657,#654);
#652=PRODUCT_DEFINITION('','',#658,#655);
#653=PRODUCT_DEFINITION_CONTEXT('',#672,'design');
#654=PRODUCT_DEFINITION_CONTEXT('',#672,'design');
#655=PRODUCT_DEFINITION_CONTEXT('',#672,'design');
#656=PRODUCT_DEFINITION_FORMATION_WITH_SPECIFIED_SOURCE('','',#662,
 .NOT_KNOWN.);
#657=PRODUCT_DEFINITION_FORMATION_WITH_SPECIFIED_SOURCE('','',#663,
 .NOT_KNOWN.);
#658=PRODUCT_DEFINITION_FORMATION_WITH_SPECIFIED_SOURCE('','',#664,
 .NOT_KNOWN.);
#659=PRODUCT_RELATED_PRODUCT_CATEGORY('','',(#662));
#660=PRODUCT_RELATED_PRODUCT_CATEGORY('','',(#663));
#661=PRODUCT_RELATED_PRODUCT_CATEGORY('','',(#664));
#662=PRODUCT('P076 set','P076 set','P076 set',(#668));
#663=PRODUCT('DSCP076-E180 R','DSCP076-E180 R','DSCP076-E180 R',(#669));
#664=PRODUCT('DSCP076-E180 L','DSCP076-E180 L','DSCP076-E180 L',(#670));
#665=PRODUCT_CATEGORY('','');
#666=PRODUCT_CATEGORY('','');
#667=PRODUCT_CATEGORY('','');
#668=PRODUCT_CONTEXT('',#672,'mechanical');
#669=PRODUCT_CONTEXT('',#672,'mechanical');
#670=PRODUCT_CONTEXT('',#672,'mechanical');
#671=APPLICATION_PROTOCOL_DEFINITION('international standard',
'ap242_managed_model_based_3d_engineering',2011,#672);
#672=APPLICATION_CONTEXT('managed model based 3d engineering');
ENDSEC;
END-ISO-10303-21;
